ISO-10303-21;
HEADER;
FILE_DESCRIPTION (( 'STEP AP214' ),
    '1' );
FILE_NAME ('GCC-411114.STEP',
    '2020-02-15T10:10:54',
    ( 'China' ),
    ( 'Microsoft' ),
    'SwSTEP 2.0',
    'SolidWorks 2018',
    '' );
FILE_SCHEMA (( 'AUTOMOTIVE_DESIGN' ));
ENDSEC;

DATA;
#1 = PRODUCT_CONTEXT ( 'NONE', #32, 'mechanical' ) ;
#2 = SHAPE_DEFINITION_REPRESENTATION ( #168, #214 ) ;
#3 = CYLINDRICAL_SURFACE ( 'NONE', #150, 12.69999999999999929 ) ;
#4 = ADVANCED_FACE ( 'NONE', ( #81 ), #24, .T. ) ;
#5 = LINE ( 'NONE', #82, #62 ) ;
#6 = CARTESIAN_POINT ( 'NONE',  ( 0.0000000000000000000, 0.0000000000000000000, 2.699999999999994849 ) ) ;
#7 = AXIS2_PLACEMENT_3D ( 'NONE', #72, #104, #59 ) ;
#8 = CARTESIAN_POINT ( 'NONE',  ( 0.0000000000000000000, 0.0000000000000000000, 0.2999999999999981570 ) ) ;
#9 = ORIENTED_EDGE ( 'NONE', *, *, #173, .T. ) ;
#10 = CARTESIAN_POINT ( 'NONE',  ( 12.69999999999999929, 1.555301434917138433E-15, 2.699999999999994849 ) ) ;
#11 = CARTESIAN_POINT ( 'NONE',  ( -12.39999999999999325, 0.0000000000000000000, 3.000000000000000000 ) ) ;
#12 = AXIS2_PLACEMENT_3D ( 'NONE', #76, #208, #225 ) ;
#13 = AXIS2_PLACEMENT_3D ( 'NONE', #212, #46, #157 ) ;
#14 = SURFACE_SIDE_STYLE ('',( #60 ) ) ;
#15 = EDGE_LOOP ( 'NONE', ( #166, #100, #114, #91 ) ) ;
#16 =( NAMED_UNIT ( * ) PLANE_ANGLE_UNIT ( ) SI_UNIT ( $, .RADIAN. ) );
#17 = AXIS2_PLACEMENT_3D ( 'NONE', #99, #121, #156 ) ;
#18 = ORIENTED_EDGE ( 'NONE', *, *, #109, .T. ) ;
#19 = CONICAL_SURFACE ( 'NONE', #177, 12.39999999999999325, 0.7853981633974511656 ) ;
#20 = ADVANCED_FACE ( 'NONE', ( #146 ), #155, .T. ) ;
#21 = DIRECTION ( 'NONE',  ( -0.0000000000000000000, -0.0000000000000000000, -1.000000000000000000 ) ) ;
#22 = DIRECTION ( 'NONE',  ( -1.000000000000000000, 0.0000000000000000000, 0.0000000000000000000 ) ) ;
#23 = EDGE_CURVE ( 'NONE', #54, #188, #5, .T. ) ;
#24 = PLANE ( 'NONE',  #17 ) ;
#25 = PRESENTATION_STYLE_ASSIGNMENT (( #93 ) ) ;
#26 = ORIENTED_EDGE ( 'NONE', *, *, #109, .F. ) ;
#27 = VECTOR ( 'NONE', #182, 1000.000000000000000 ) ;
#28 = CARTESIAN_POINT ( 'NONE',  ( 0.0000000000000000000, 0.0000000000000000000, 3.000000000000000000 ) ) ;
#29 = DIRECTION ( 'NONE',  ( 1.000000000000000000, 0.0000000000000000000, -0.0000000000000000000 ) ) ;
#30 = PRODUCT ( 'GCC-411114', 'GCC-411114', '', ( #1 ) ) ;
#31 = DIRECTION ( 'NONE',  ( -0.0000000000000000000, -0.0000000000000000000, 1.000000000000000000 ) ) ;
#32 = APPLICATION_CONTEXT ( 'automotive_design' ) ;
#33 = COLOUR_RGB ( '',0.9411764705882352811, 0.9607843137254902244, 0.9686274509803921573 ) ;
#34 = ORIENTED_EDGE ( 'NONE', *, *, #75, .T. ) ;
#35 = FACE_OUTER_BOUND ( 'NONE', #78, .T. ) ;
#36 = ORIENTED_EDGE ( 'NONE', *, *, #165, .T. ) ;
#37 = CIRCLE ( 'NONE', #56, 12.69999999999999929 ) ;
#38 = DIRECTION ( 'NONE',  ( -0.0000000000000000000, -0.0000000000000000000, -1.000000000000000000 ) ) ;
#39 = LINE ( 'NONE', #162, #226 ) ;
#40 = AXIS2_PLACEMENT_3D ( 'NONE', #122, #231, #22 ) ;
#41 = EDGE_LOOP ( 'NONE', ( #158, #44 ) ) ;
#42 = LINE ( 'NONE', #142, #167 ) ;
#43 = ADVANCED_FACE ( 'NONE', ( #55 ), #102, .T. ) ;
#44 = ORIENTED_EDGE ( 'NONE', *, *, #211, .T. ) ;
#45 = EDGE_CURVE ( 'NONE', #170, #190, #144, .T. ) ;
#46 = DIRECTION ( 'NONE',  ( -0.0000000000000000000, -0.0000000000000000000, -1.000000000000000000 ) ) ;
#47 = FACE_OUTER_BOUND ( 'NONE', #154, .T. ) ;
#48 = DIRECTION ( 'NONE',  ( 1.000000000000000000, 0.0000000000000000000, 0.0000000000000000000 ) ) ;
#49 = DIRECTION ( 'NONE',  ( 0.0000000000000000000, 0.0000000000000000000, -1.000000000000000000 ) ) ;
#50 = AXIS2_PLACEMENT_3D ( 'NONE', #51, #148, #219 ) ;
#51 = CARTESIAN_POINT ( 'NONE',  ( 0.0000000000000000000, 0.0000000000000000000, 3.000000000000000000 ) ) ;
#52 =( LENGTH_UNIT ( ) NAMED_UNIT ( * ) SI_UNIT ( .MILLI., .METRE. ) );
#53 = EDGE_LOOP ( 'NONE', ( #196, #176, #101, #206 ) ) ;
#54 = VERTEX_POINT ( 'NONE', #86 ) ;
#55 = FACE_OUTER_BOUND ( 'NONE', #240, .T. ) ;
#56 = AXIS2_PLACEMENT_3D ( 'NONE', #187, #218, #199 ) ;
#57 =( NAMED_UNIT ( * ) PLANE_ANGLE_UNIT ( ) SI_UNIT ( $, .RADIAN. ) );
#58 = VECTOR ( 'NONE', #69, 1000.000000000000000 ) ;
#59 = DIRECTION ( 'NONE',  ( 1.000000000000000000, 0.0000000000000000000, 0.0000000000000000000 ) ) ;
#60 = SURFACE_STYLE_FILL_AREA ( #172 ) ;
#61 = EDGE_LOOP ( 'NONE', ( #151, #152, #113, #65 ) ) ;
#62 = VECTOR ( 'NONE', #180, 1000.000000000000000 ) ;
#63 = ADVANCED_FACE ( 'NONE', ( #149 ), #19, .T. ) ;
#64 = VERTEX_POINT ( 'NONE', #10 ) ;
#65 = ORIENTED_EDGE ( 'NONE', *, *, #233, .F. ) ;
#66 = PRESENTATION_STYLE_ASSIGNMENT (( #90 ) ) ;
#67 = DIRECTION ( 'NONE',  ( -1.000000000000000000, 0.0000000000000000000, 0.0000000000000000000 ) ) ;
#68 = FILL_AREA_STYLE_COLOUR ( '', #161 ) ;
#69 = DIRECTION ( 'NONE',  ( -0.7071067811865495711, 0.0000000000000000000, -0.7071067811865454633 ) ) ;
#70 = DIRECTION ( 'NONE',  ( 0.7071067811865495711, 8.659560562354956277E-17, -0.7071067811865454633 ) ) ;
#71 =( LENGTH_UNIT ( ) NAMED_UNIT ( * ) SI_UNIT ( .MILLI., .METRE. ) );
#72 = CARTESIAN_POINT ( 'NONE',  ( 0.0000000000000000000, 0.0000000000000000000, 2.699999999999994849 ) ) ;
#73 = CLOSED_SHELL ( 'NONE', ( #20, #174, #43, #96, #4, #209, #117, #63 ) ) ;
#74 = FACE_OUTER_BOUND ( 'NONE', #61, .T. ) ;
#75 = EDGE_CURVE ( 'NONE', #188, #207, #98, .T. ) ;
#76 = CARTESIAN_POINT ( 'NONE',  ( 0.0000000000000000000, 0.0000000000000000000, 0.0000000000000000000 ) ) ;
#77 = MECHANICAL_DESIGN_GEOMETRIC_PRESENTATION_REPRESENTATION (  '', ( #202 ), #89 ) ;
#78 = EDGE_LOOP ( 'NONE', ( #220, #36 ) ) ;
#79 = PRODUCT_RELATED_PRODUCT_CATEGORY ( 'part', '', ( #30 ) ) ;
#80 = AXIS2_PLACEMENT_3D ( 'NONE', #163, #147, #29 ) ;
#81 = FACE_OUTER_BOUND ( 'NONE', #41, .T. ) ;
#82 = CARTESIAN_POINT ( 'NONE',  ( -12.69999999999999929, 1.555301434917138433E-15, 0.2999999999999981570 ) ) ;
#83 = DIRECTION ( 'NONE',  ( 1.000000000000000000, 0.0000000000000000000, 0.0000000000000000000 ) ) ;
#84 = CARTESIAN_POINT ( 'NONE',  ( -12.69999999999999929, 0.0000000000000000000, 3.000000000000000000 ) ) ;
#85 = CIRCLE ( 'NONE', #7, 12.69999999999999929 ) ;
#86 = CARTESIAN_POINT ( 'NONE',  ( -12.40000000000000036, 1.536931732929928200E-15, 0.0000000000000000000 ) ) ;
#87 = CARTESIAN_POINT ( 'NONE',  ( -12.39999999999999325, 0.0000000000000000000, 3.000000000000000000 ) ) ;
#88 = CARTESIAN_POINT ( 'NONE',  ( 12.39999999999999325, 1.518562030942716784E-15, 3.000000000000000000 ) ) ;
#89 =( GEOMETRIC_REPRESENTATION_CONTEXT ( 3 ) GLOBAL_UNCERTAINTY_ASSIGNED_CONTEXT ( ( #210 ) ) GLOBAL_UNIT_ASSIGNED_CONTEXT ( ( #52, #57, #236 ) ) REPRESENTATION_CONTEXT ( 'NONE', 'WORKASPACE' ) );
#90 = SURFACE_STYLE_USAGE ( .BOTH. , #200 ) ;
#91 = ORIENTED_EDGE ( 'NONE', *, *, #184, .F. ) ;
#92 =( GEOMETRIC_REPRESENTATION_CONTEXT ( 3 ) GLOBAL_UNCERTAINTY_ASSIGNED_CONTEXT ( ( #130 ) ) GLOBAL_UNIT_ASSIGNED_CONTEXT ( ( #71, #237, #127 ) ) REPRESENTATION_CONTEXT ( 'NONE', 'WORKASPACE' ) );
#93 = SURFACE_STYLE_USAGE ( .BOTH. , #14 ) ;
#94 = UNCERTAINTY_MEASURE_WITH_UNIT (LENGTH_MEASURE( 1.000000000000000082E-05 ), #110, 'distance_accuracy_value', 'NONE');
#95 = EDGE_CURVE ( 'NONE', #143, #64, #183, .T. ) ;
#96 = ADVANCED_FACE ( 'NONE', ( #47 ), #3, .T. ) ;
#97 = ORIENTED_EDGE ( 'NONE', *, *, #95, .F. ) ;
#98 = CIRCLE ( 'NONE', #215, 12.69999999999999929 ) ;
#99 = CARTESIAN_POINT ( 'NONE',  ( 0.0000000000000000000, 0.0000000000000000000, 3.000000000000000000 ) ) ;
#100 = ORIENTED_EDGE ( 'NONE', *, *, #45, .F. ) ;
#101 = ORIENTED_EDGE ( 'NONE', *, *, #233, .T. ) ;
#102 = CYLINDRICAL_SURFACE ( 'NONE', #40, 12.69999999999999929 ) ;
#103 = DIRECTION ( 'NONE',  ( 0.0000000000000000000, 0.0000000000000000000, -1.000000000000000000 ) ) ;
#104 = DIRECTION ( 'NONE',  ( 0.0000000000000000000, 0.0000000000000000000, -1.000000000000000000 ) ) ;
#105 = LINE ( 'NONE', #11, #58 ) ;
#106 = DIRECTION ( 'NONE',  ( 0.7071067811865495711, 0.0000000000000000000, 0.7071067811865454633 ) ) ;
#107 = AXIS2_PLACEMENT_3D ( 'NONE', #133, #31, #125 ) ;
#108 = ORIENTED_EDGE ( 'NONE', *, *, #222, .T. ) ;
#109 = EDGE_CURVE ( 'NONE', #64, #207, #42, .T. ) ;
#110 =( LENGTH_UNIT ( ) NAMED_UNIT ( * ) SI_UNIT ( .MILLI., .METRE. ) );
#111 = EDGE_CURVE ( 'NONE', #136, #54, #137, .T. ) ;
#112 = APPLICATION_CONTEXT ( 'automotive_design' ) ;
#113 = ORIENTED_EDGE ( 'NONE', *, *, #173, .F. ) ;
#114 = ORIENTED_EDGE ( 'NONE', *, *, #159, .T. ) ;
#115 = MECHANICAL_DESIGN_GEOMETRIC_PRESENTATION_REPRESENTATION (  '', ( #135 ), #131 ) ;
#116 = ORIENTED_EDGE ( 'NONE', *, *, #211, .F. ) ;
#117 = ADVANCED_FACE ( 'NONE', ( #221 ), #213, .T. ) ;
#118 = DIRECTION ( 'NONE',  ( -1.000000000000000000, 0.0000000000000000000, 0.0000000000000000000 ) ) ;
#119 = DIRECTION ( 'NONE',  ( -1.000000000000000000, 0.0000000000000000000, 0.0000000000000000000 ) ) ;
#120 = AXIS2_PLACEMENT_3D ( 'NONE', #6, #49, #185 ) ;
#121 = DIRECTION ( 'NONE',  ( 0.0000000000000000000, 0.0000000000000000000, 1.000000000000000000 ) ) ;
#122 = CARTESIAN_POINT ( 'NONE',  ( 0.0000000000000000000, 0.0000000000000000000, 3.000000000000000000 ) ) ;
#123 = CIRCLE ( 'NONE', #50, 12.39999999999999325 ) ;
#124 = CARTESIAN_POINT ( 'NONE',  ( -12.69999999999999929, 0.0000000000000000000, 2.699999999999994849 ) ) ;
#125 = DIRECTION ( 'NONE',  ( 1.000000000000000000, 0.0000000000000000000, 0.0000000000000000000 ) ) ;
#126 = EDGE_CURVE ( 'NONE', #143, #188, #217, .T. ) ;
#127 =( NAMED_UNIT ( * ) SI_UNIT ( $, .STERADIAN. ) SOLID_ANGLE_UNIT ( ) );
#128 = AXIS2_PLACEMENT_3D ( 'NONE', #160, #103, #119 ) ;
#129 = ORIENTED_EDGE ( 'NONE', *, *, #95, .T. ) ;
#130 = UNCERTAINTY_MEASURE_WITH_UNIT (LENGTH_MEASURE( 1.000000000000000082E-05 ), #71, 'distance_accuracy_value', 'NONE');
#131 =( GEOMETRIC_REPRESENTATION_CONTEXT ( 3 ) GLOBAL_UNCERTAINTY_ASSIGNED_CONTEXT ( ( #94 ) ) GLOBAL_UNIT_ASSIGNED_CONTEXT ( ( #110, #16, #224 ) ) REPRESENTATION_CONTEXT ( 'NONE', 'WORKASPACE' ) );
#132 = APPLICATION_PROTOCOL_DEFINITION ( 'draft international standard', 'automotive_design', 1998, #32 ) ;
#133 = CARTESIAN_POINT ( 'NONE',  ( 0.0000000000000000000, 0.0000000000000000000, 0.2999999999999981570 ) ) ;
#134 = APPLICATION_PROTOCOL_DEFINITION ( 'draft international standard', 'automotive_design', 1998, #112 ) ;
#135 = STYLED_ITEM ( 'NONE', ( #25 ), #214 ) ;
#136 = VERTEX_POINT ( 'NONE', #232 ) ;
#137 = CIRCLE ( 'NONE', #13, 12.40000000000000036 ) ;
#138 = PRODUCT_DEFINITION_CONTEXT ( 'detailed design', #112, 'design' ) ;
#139 = MANIFOLD_SOLID_BREP ( 'µ¹½Ç1', #73 ) ;
#140 = AXIS2_PLACEMENT_3D ( 'NONE', #28, #181, #235 ) ;
#141 = DIRECTION ( 'NONE',  ( -0.0000000000000000000, -0.0000000000000000000, 1.000000000000000000 ) ) ;
#142 = CARTESIAN_POINT ( 'NONE',  ( 12.69999999999999929, 1.555301434917138433E-15, 3.000000000000000000 ) ) ;
#143 = VERTEX_POINT ( 'NONE', #124 ) ;
#144 = CIRCLE ( 'NONE', #140, 12.39999999999999325 ) ;
#145 = CARTESIAN_POINT ( 'NONE',  ( 0.0000000000000000000, 0.0000000000000000000, 3.000000000000000000 ) ) ;
#146 = FACE_OUTER_BOUND ( 'NONE', #228, .T. ) ;
#147 = DIRECTION ( 'NONE',  ( 0.0000000000000000000, 0.0000000000000000000, 1.000000000000000000 ) ) ;
#148 = DIRECTION ( 'NONE',  ( 0.0000000000000000000, 0.0000000000000000000, 1.000000000000000000 ) ) ;
#149 = FACE_OUTER_BOUND ( 'NONE', #15, .T. ) ;
#150 = AXIS2_PLACEMENT_3D ( 'NONE', #198, #21, #67 ) ;
#151 = ORIENTED_EDGE ( 'NONE', *, *, #165, .F. ) ;
#152 = ORIENTED_EDGE ( 'NONE', *, *, #23, .T. ) ;
#153 = PRODUCT_DEFINITION ( 'Î´Öª', '', #169, #138 ) ;
#154 = EDGE_LOOP ( 'NONE', ( #26, #234, #204, #34 ) ) ;
#155 = CONICAL_SURFACE ( 'NONE', #128, 12.39999999999999325, 0.7853981633974511656 ) ;
#156 = DIRECTION ( 'NONE',  ( 1.000000000000000000, 0.0000000000000000000, -0.0000000000000000000 ) ) ;
#157 = DIRECTION ( 'NONE',  ( 1.000000000000000000, 0.0000000000000000000, 0.0000000000000000000 ) ) ;
#158 = ORIENTED_EDGE ( 'NONE', *, *, #45, .T. ) ;
#159 = EDGE_CURVE ( 'NONE', #170, #143, #105, .T. ) ;
#160 = CARTESIAN_POINT ( 'NONE',  ( 0.0000000000000000000, 0.0000000000000000000, 3.000000000000000000 ) ) ;
#161 = COLOUR_RGB ( '',0.9411764705882352811, 0.9607843137254902244, 0.9686274509803921573 ) ;
#162 = CARTESIAN_POINT ( 'NONE',  ( 12.69999999999999929, 0.0000000000000000000, 0.2999999999999981570 ) ) ;
#163 = CARTESIAN_POINT ( 'NONE',  ( 0.0000000000000000000, 0.0000000000000000000, 0.0000000000000000000 ) ) ;
#164 = FILL_AREA_STYLE_COLOUR ( '', #33 ) ;
#165 = EDGE_CURVE ( 'NONE', #54, #136, #201, .T. ) ;
#166 = ORIENTED_EDGE ( 'NONE', *, *, #222, .F. ) ;
#167 = VECTOR ( 'NONE', #179, 1000.000000000000000 ) ;
#168 = PRODUCT_DEFINITION_SHAPE ( 'NONE', 'NONE',  #153 ) ;
#169 = PRODUCT_DEFINITION_FORMATION_WITH_SPECIFIED_SOURCE ( 'ÈÎºÎ', '', #30, .NOT_KNOWN. ) ;
#170 = VERTEX_POINT ( 'NONE', #87 ) ;
#171 = CARTESIAN_POINT ( 'NONE',  ( 12.39999999999999325, 1.536931732929927411E-15, 3.000000000000000000 ) ) ;
#172 = FILL_AREA_STYLE ('',( #164 ) ) ;
#173 = EDGE_CURVE ( 'NONE', #207, #188, #37, .T. ) ;
#174 = ADVANCED_FACE ( 'NONE', ( #74 ), #189, .T. ) ;
#175 = LINE ( 'NONE', #88, #216 ) ;
#176 = ORIENTED_EDGE ( 'NONE', *, *, #111, .F. ) ;
#177 = AXIS2_PLACEMENT_3D ( 'NONE', #145, #230, #118 ) ;
#178 = ORIENTED_EDGE ( 'NONE', *, *, #159, .F. ) ;
#179 = DIRECTION ( 'NONE',  ( -0.0000000000000000000, -0.0000000000000000000, -1.000000000000000000 ) ) ;
#180 = DIRECTION ( 'NONE',  ( -0.7071067811865495711, 8.659560562354957510E-17, 0.7071067811865454633 ) ) ;
#181 = DIRECTION ( 'NONE',  ( 0.0000000000000000000, 0.0000000000000000000, 1.000000000000000000 ) ) ;
#182 = DIRECTION ( 'NONE',  ( -0.0000000000000000000, -0.0000000000000000000, -1.000000000000000000 ) ) ;
#183 = CIRCLE ( 'NONE', #120, 12.69999999999999929 ) ;
#184 = EDGE_CURVE ( 'NONE', #64, #143, #85, .T. ) ;
#185 = DIRECTION ( 'NONE',  ( 1.000000000000000000, 0.0000000000000000000, 0.0000000000000000000 ) ) ;
#186 = DIRECTION ( 'NONE',  ( 1.000000000000000000, 0.0000000000000000000, 0.0000000000000000000 ) ) ;
#187 = CARTESIAN_POINT ( 'NONE',  ( 0.0000000000000000000, 0.0000000000000000000, 0.2999999999999981570 ) ) ;
#188 = VERTEX_POINT ( 'NONE', #238 ) ;
#189 = CONICAL_SURFACE ( 'NONE', #107, 12.69999999999999929, 0.7853981633974511656 ) ;
#190 = VERTEX_POINT ( 'NONE', #171 ) ;
#191 = PLANE ( 'NONE',  #80 ) ;
#192 = AXIS2_PLACEMENT_3D ( 'NONE', #194, #195, #83 ) ;
#193 = PRESENTATION_LAYER_ASSIGNMENT (  '', '', ( #135 ) ) ;
#194 = CARTESIAN_POINT ( 'NONE',  ( 0.0000000000000000000, 0.0000000000000000000, 0.2999999999999981570 ) ) ;
#195 = DIRECTION ( 'NONE',  ( -0.0000000000000000000, -0.0000000000000000000, 1.000000000000000000 ) ) ;
#196 = ORIENTED_EDGE ( 'NONE', *, *, #23, .F. ) ;
#197 = FILL_AREA_STYLE ('',( #68 ) ) ;
#198 = CARTESIAN_POINT ( 'NONE',  ( 0.0000000000000000000, 0.0000000000000000000, 3.000000000000000000 ) ) ;
#199 = DIRECTION ( 'NONE',  ( 1.000000000000000000, 0.0000000000000000000, 0.0000000000000000000 ) ) ;
#200 = SURFACE_SIDE_STYLE ('',( #229 ) ) ;
#201 = CIRCLE ( 'NONE', #239, 12.40000000000000036 ) ;
#202 = STYLED_ITEM ( 'NONE', ( #66 ), #139 ) ;
#203 = ORIENTED_EDGE ( 'NONE', *, *, #126, .F. ) ;
#204 = ORIENTED_EDGE ( 'NONE', *, *, #126, .T. ) ;
#205 = CARTESIAN_POINT ( 'NONE',  ( 0.0000000000000000000, 0.0000000000000000000, 0.0000000000000000000 ) ) ;
#206 = ORIENTED_EDGE ( 'NONE', *, *, #75, .F. ) ;
#207 = VERTEX_POINT ( 'NONE', #223 ) ;
#208 = DIRECTION ( 'NONE',  ( 0.0000000000000000000, 0.0000000000000000000, 1.000000000000000000 ) ) ;
#209 = ADVANCED_FACE ( 'NONE', ( #35 ), #191, .F. ) ;
#210 = UNCERTAINTY_MEASURE_WITH_UNIT (LENGTH_MEASURE( 1.000000000000000082E-05 ), #52, 'distance_accuracy_value', 'NONE');
#211 = EDGE_CURVE ( 'NONE', #190, #170, #123, .T. ) ;
#212 = CARTESIAN_POINT ( 'NONE',  ( 0.0000000000000000000, 0.0000000000000000000, 0.0000000000000000000 ) ) ;
#213 = CONICAL_SURFACE ( 'NONE', #192, 12.69999999999999929, 0.7853981633974511656 ) ;
#214 = ADVANCED_BREP_SHAPE_REPRESENTATION ( 'GCC-411114', ( #139, #12 ), #92 ) ;
#215 = AXIS2_PLACEMENT_3D ( 'NONE', #8, #141, #48 ) ;
#216 = VECTOR ( 'NONE', #70, 1000.000000000000000 ) ;
#217 = LINE ( 'NONE', #84, #27 ) ;
#218 = DIRECTION ( 'NONE',  ( -0.0000000000000000000, -0.0000000000000000000, 1.000000000000000000 ) ) ;
#219 = DIRECTION ( 'NONE',  ( 1.000000000000000000, 0.0000000000000000000, 0.0000000000000000000 ) ) ;
#220 = ORIENTED_EDGE ( 'NONE', *, *, #111, .T. ) ;
#221 = FACE_OUTER_BOUND ( 'NONE', #53, .T. ) ;
#222 = EDGE_CURVE ( 'NONE', #190, #64, #175, .T. ) ;
#223 = CARTESIAN_POINT ( 'NONE',  ( 12.69999999999999929, 1.555301434917138433E-15, 0.2999999999999981570 ) ) ;
#224 =( NAMED_UNIT ( * ) SI_UNIT ( $, .STERADIAN. ) SOLID_ANGLE_UNIT ( ) );
#225 = DIRECTION ( 'NONE',  ( 1.000000000000000000, 0.0000000000000000000, 0.0000000000000000000 ) ) ;
#226 = VECTOR ( 'NONE', #106, 1000.000000000000000 ) ;
#227 = PRESENTATION_LAYER_ASSIGNMENT (  '', '', ( #202 ) ) ;
#228 = EDGE_LOOP ( 'NONE', ( #116, #108, #97, #178 ) ) ;
#229 = SURFACE_STYLE_FILL_AREA ( #197 ) ;
#230 = DIRECTION ( 'NONE',  ( 0.0000000000000000000, 0.0000000000000000000, -1.000000000000000000 ) ) ;
#231 = DIRECTION ( 'NONE',  ( -0.0000000000000000000, -0.0000000000000000000, -1.000000000000000000 ) ) ;
#232 = CARTESIAN_POINT ( 'NONE',  ( 12.40000000000000036, 0.0000000000000000000, 0.0000000000000000000 ) ) ;
#233 = EDGE_CURVE ( 'NONE', #136, #207, #39, .T. ) ;
#234 = ORIENTED_EDGE ( 'NONE', *, *, #184, .T. ) ;
#235 = DIRECTION ( 'NONE',  ( 1.000000000000000000, 0.0000000000000000000, 0.0000000000000000000 ) ) ;
#236 =( NAMED_UNIT ( * ) SI_UNIT ( $, .STERADIAN. ) SOLID_ANGLE_UNIT ( ) );
#237 =( NAMED_UNIT ( * ) PLANE_ANGLE_UNIT ( ) SI_UNIT ( $, .RADIAN. ) );
#238 = CARTESIAN_POINT ( 'NONE',  ( -12.69999999999999929, 0.0000000000000000000, 0.2999999999999981570 ) ) ;
#239 = AXIS2_PLACEMENT_3D ( 'NONE', #205, #38, #186 ) ;
#240 = EDGE_LOOP ( 'NONE', ( #129, #18, #9, #203 ) ) ;
ENDSEC;
END-ISO-10303-21;
